Long May You Run Neil Young



Dovnload 404.77 Kb.
Pagina13/20
Datum22.07.2016
Grootte404.77 Kb.
1   ...   9   10   11   12   13   14   15   16   ...   20


Old Soldier




David Crosby


Gmaj7 F#m Bm Gmaj7 F#m Bm Gmaj7 F#m Bm
D A F#m

Listen old soldier where ever you are



G D A

Hills of the valley’s come near or come far



D A F#m

You say youth is a treasure we waste when we’re young



G D A Gmaj7

So come down from the place where your medals are hung



G A D Bm

Your forever returning and learning to fight



G A Gmaj7 F#m Bm

And you feel just like an old soldier tonight



D A F#m

Listen old soldier cause time doesn’t wait



G D A

Moon’s on your shoulder the hour is late



D A F#m

Something there inside still calls out to you



G D A Gmaj7

And you won’t fade away whatever you do



G A D Bm

Your forever beginning barely winning the fight



G A Gmaj 7

You feel just like an old soldier tonight



G A F#m Gmaj7

Your not getting any younger that much is true



G A F#m Gmaj7

But your still got that hunger burning in you



Asus

So what’ll you do now


Harmonica
Asus Gmaj F#m Bm

So what’ll you do now



D A F#m

Listen old soldier to the sound in your ear



G D A

Of too many battles for too many years



D A F#m

There’s only one thing you’ve learned in defeat



G D A Gmaj7

Is that losing is bitter and victor is sweet



G A D Bm

Your always unravelling and travelling lite



G A G

And you feel like an old soldier tonight



G A Gmaj 7 F#m Bm

And you feel like an old soldier tonight





15 Miljoen mensen




Fluitsma & van Tijn




Am C

Land van 1000 meningen



D F

Het land van nuchterheid



Am C

Met z’n allen op het strand



D F

Beschuit bij het ontbijt


G Am

Het land waar niemand zich laat gaan



Em F

Behalve als we winnen



G Am

Dan breekt acuut de passie los



F D

Dan blijft geen mens meer binnen


Am C

Het land wars van betutteling



D F

Geen uniform is heilig



Am C

Een zoon die noemt z’n vader Piet



D F

Een fiets staat nergens veilig

Refr.:

C G Dm Am

15 Miljoen mensen, op dat hele kleine stukje aarde



C G F G

Die schrijf je niet de wetten voor, die laat je in hun waarde



C G Dm Am

15 Miljoen mensen, op dat hele kleine stukje aarde



C G F C

Die moeten niet ‘t keurslijf in, die laat je in hun waarde

Het land vol groepen van protest

Geen chef die echt de baas is

Gordijnen altijd open zijn

Lunch een broodje kaas is


Het land vol van verdraagzaamheid

Alleen niet voor de buurman

De grote vraag die blijft altijd

Waar betaalt ‘ie nou z’n huur van


‘t Land dat zorgt voor iedereen

Geen hond die van een goot weet

Met nasiballen in de muur

En niemand die droog brood eet


Refr.(2x)


Nothing Else Matters




Metallica

INTRO
VERSE 1:



Em D C

So Close no matter how far



Em D C

Couldn’t be much more from the heart



Em D C

Forever trusting who we are



G D C

And nothing else matters



Em D C

I’ve never opened myself this way



Em D C

Life is ours we live it our way



Em D C

All these words I don’t just say



G D C

And nothing else matters



Em D C

Trust I seek and I find in you



Em D C

Every day for us something new



Em D C

Open mind for a different view



G D C

And nothing else matters


CHORUS:

D D D D C A

Never care for what they do



D D D D C A

Never care for what they know



Em

And I know


VERSE 2:

So Close no matter how far

Couldn’t be much more from the heart

Forever trusting who we are

And nothing else matters
CHORUS:

Never care for what they do

Never care for what they know

And I know yeah that’s right


INTERLUDE
VERSE 3:

I’ve never opened my self this way

Life is ours we live it our way

All these words I don’t just say

And nothing else matters

Trust I seek and I find in you

Every day for us something new

Open mind for a different view

And nothing else matters
CHORUS :

Never care for things they say

never care for games they play

I’ve never cared for what they do

I’ve never cared for what they know

And I know YeahYeahYeahhhhhhh


SOLO
OUTRO

Voor de liefhebber het eerste deel van de Tabs bij dit nummer!!!



e|-------0-----|-------0-----|-------0-----|-------0---7-|

B|-----0---0---|-----0---0---|-----0---0---|-----0---0---|

G|---0-------0-|---0-------0-|---0-------0-|---0---------|

D|-------------|-------------|-------------|-------------|

A|-------------|-------------|-------------|-------------|

E|-0-----------|-0-----------|-0-----------|-0-----------|

P (9/8 time) H P S P S

e|-7-----------7^0---------|---------7---8---7^8\5---7-5^3\2-----|

B|-----0-----------0-------|---------0---0-----------0-------5---|

G|---------0-----------0---|-----0-------------------------------|

D|-------------------------|-------------------------------------|

A|-------------------------|-------------------------------------|

E|-0-----------------------|-0-----------------------------------|

P

e|-------------2^0---------|-------------0---0---0---|



B|-5-------5-------5-------|---------5-------5---5---|

G|-----5---------------5---|-----5-----------5---5---|

D|-------------------------|-------------------------|

A|-0-----------------------|-0---------------0---2---|

E|-------------------------|-------------------------|

P H P P H

e|-0-----------3^0-----0---|-0-----------0^5^0--------|

B|-5-------5-------5---5---|-7-------7---------7^0-0^5|

G|-5-----5---5-------5-5---|-7-----7---7--------------|

D|-------------------------|--------------------------|

A|-3---3---------------3---|-5---5--------------------|

E|-------------------------|--------------------------|



<.NH.>

e|-------12----|-------0-----|-------0-----|-------0-----|

B|-----12--0---|-----0---0---|-----0---0---|-----0---0---|

G|---12------0-|---0-------0-|---0-------0-|---0-------0-|

D|-------------|-------------|-------------|-------------|

A|-------------|-------------|-------------|-------------|

E|-0-----------|-0-----------|-0-----------|-0-----------|



1   ...   9   10   11   12   13   14   15   16   ...   20


De database wordt beschermd door het auteursrecht ©opleid.info 2017
stuur bericht

    Hoofdpagina